Blink 182 - Feeling This, аккорды

Прокрутка
Тональность
Шрифт
100
Blink 182 - Feeling This

ok here we go......

drums start out then here
e----------------------------------------------------------------------------
B----------------------------------------------------------------------------
G----------------------------11-9-9-9-9--9-13-11-9-9-9-9-9-13-11-9-9-9-9-9-13
D-----------------------------x-x-x-x-x--x-x--x-x-x-x-x--x--x-x--x-x-x-x-x-x-
A9-7-7-7-7-7-11-9-7-7-7-7-7-11-9-7-7-7-7--7-11-9-7-7-7-7--7-11-9-7-7-7-7-7 11
E----------0--------------0---------------0---------------0---------------0--
continued...

e--------------
B--------------
G11-9-9-9-9--9-
D-x-x-x-x-x--x-