Blink 182 - First Date (ver 13), аккорды

Прокрутка
Тональность
Шрифт
100
Blink 182 - First Date.
 Tabbed by Mike, hawker489@aol.com.
  
Standard Tuning

Intro
e-0---------------------------------------------
B---1---1---3-1---1---3-1---1---3--1---0--------
G-----0---------0---------0----------0--(0)-----
D-----------------------------------------------
A-----------------------------------------------
E-----------------------------------------------

Play (0) only on the second time.

Verse
e---------x8
B---------
G-55-555--
D---------
A---------
E---------

Pre-Chorus
e--------------------------x2
B--------------------------
G-555-444-2-2-2-2----------
D-555-444-2-2-2-2-3-3-5-5--
A-333-222-0-0-0-0-3-3-5-5--
E-----------------1-1-3-3--

Chorus
e-------------------------------------x2
B-------------------------------------
G-555555554444444422222222------------
D-555555554444444422222222-3-3-5-5----
A-333333332222222200000000-3-3-5-5----
E--------------------------1-1-3-3----

Bridge
e-----------------------------------------x2
B-----------------------------------------
G-55555555--------------------------------
D-55555555--22222222--33333333--55555555--
A-33333333--22222222--33333333--55555555--
E-----------00000000--11111111--33333333--

e----------------------------------------------x4
B----------------------------------------------
G--555555--999955--101010105--7777777-7--
D--xxxxxx--xxxx--xx--xxxxxxxx--x--xxxxxxx-x----
A--333333--777733---8-8-8-83--5555555-5--
E----------------------------------------------

The 10's are ten's, 1 one and then 0!  means to slide. You can use the song to find out the order, but
it's a pretty easy song. 
:: Ultimate Guitar Archive :: 
http://www.ultimate-guitar.com