Blink 182 - Mms, аккорды

Прокрутка
Тональность
Шрифт
100
M+M's by Blink 182


This is the intro to one of Blink 182's classics. I am 99% sure it is correct. If anyone thinks there should be changes made just e-mail me at fla7x@hotmail.com 

- Jason 



Gtr I (E A D G B E) - 'M+M's Intro'



  
  Gtr I
  
|-4---0-5-0-0-7-0-5-0-4-0-5-4-0-0-|-2-0-0-4-0-0-5-0-4-0-2-0-0-0-0-0---|
|---5-----------------------------|-----------------------------------|
|---------------------------------|-----------------------------------|
|---------------------------------|-----------------------------------|
|---------------------------------|-----------------------------------|
|---------------------------------|-----------------------------------|


  
|-4-0-0-5-0-0-7-0-5-0-4-0-5-4-0-0-|-2-0-0-4-0-0-2-0-4-0-2-0-0-0-0-0---|
|---------------------------------|-----------------------------------|
|---------------------------------|-----------------------------------|
|---------------------------------|-----------------------------------|
|---------------------------------|-----------------------------------|
|---------------------------------|-----------------------------------|


  
|-4-----5-0-0-7-0-5-0-4-0-5-4-0-0-|-2-0-0-4-0-0-5-0-4-0-2-0-0-0-0-0---|
|---5-5---------------------------|-----------------------------------|
|---------------------------------|-----------------------------------|
|---------------------------------|-----------------------------------|
|---------------------------------|-----------------------------------|
|---------------------------------|-----------------------------------|


  
|-4-0-0-5-0-0-7-0-5-0-4-0-5-4-0-0-|-2-0-0-4-0-0-2-0-4-0-2-0-0-0-0-0---|
|---------------------------------|-----------------------------------|
|---------------------------------|-----------------------------------|
|---------------------------------|-----------------------------------|
|---------------------------------|-----------------------------------|
|---------------------------------|-----------------------------------|