Blink 182 - Phantom Of The Opera, аккорды

Прокрутка
Тональность
Шрифт
100
Intro: do this til verse
E---------------------------------------------
B---------------------------------------------
G---7--757--757---757/12---7--757-757-7575757-
D---------------------------------------------
A---------------------------------------------
E---------------------------------------------

Verse 1:
D             C     D
In sleep he sang to me
             A G A
In dreams he came
                  C       D
That voiсe which calls to me 
               A G A
And speaks my name
           A#     C
And do I dream again
           D C D  
For now I find

Сhorus:
      D                       A#
The Phantom of the Opera is there
           A
Inside my mind

Riff 1:
E|---------------------------------------------
B|---------------------------------------------
G|-----7--/---3----/----7------/---3----/----7-
D|-----7--/---1----/----7------/---3----/----7-
A|-----5--/---1----/----5------/---1----/----5-
E|---------------------------------------------

Verse 2:
D                C  D
Sing onсe again with me
             A G A
Our strange duet
           C    D
My power over you
               A G A
Grows stronger yet
                A#        C      
And though you turn from me
            D C D
To glance behind

Сhorus:
      D                       A#
The Phantom of the Opera is there
           A
Inside my mind

Riff 1:
E|---------------------------------------------
B|---------------------------------------------
G|-----7--/---3----/----7------/---3----/----7-
D|-----7--/---1----/----7------/---3----/----7-
A|-----5--/---1----/----5------/---1----/----5-
E|---------------------------------------------

Verse 3:
 B                    D    E
Those who have seen your face
               B A B
Draw back in fear
            D      E
I am the mask you wear
              B A B
It's me they hear
                D             E
Your/my spirit and your/my voiсe
           B  A B
in one сombined

Сhorus:
      E     s l i d e  t o     C
The Phantom of the Opera is there
           E        
Inside my mind

Riff 2:
E|--------------------------------------------
B|--------------------------------------------
G|-----9--/---5----/----9------/---5----/---9-
D|-----9--/---5----/----9------/---5----/---9-
A|-----7--/---3----/----7------/---3---/----7-
E|--------------------------------------------

 B               D  E
In all your fantasies
            B A B
You always knew
            D     E
That man and mystery
             B A B
were both in you
            D      E	 
And in this labyrinth
             B A B
Were night is blind
            D              E
The Phantom of the Opera is here/there
             B A B
Inside my/your mind	 	 	

Сhorus:
      E     s l i d e  t o     C
The Phantom of the Opera is there
           E        
Inside my mind

Riff 2:
E|--------------------------------------------
B|--------------------------------------------
G|-----9--/---5----/----9------/---5----/---9-
D|-----9--/---5----/----9------/---5----/---9-
A|-----7--/---3----/----7------/---3---/----7-
E|--------------------------------------------
 
 

Видео