Blink 182 - Rock Show (ver 11), аккорды

Прокрутка
Тональность
Шрифт
100
Blink 182
The Rock Show (New single from Take off your
Pants and Jacket to be released June 12, 2001)
(You can hear it @ www.blink182.com or d/l it off Napster)

Tabbed By Kyle
KyleL_ff@hotmail.com


Legend
x= palm mute previous note

Riff 1: (Played over chords /w diff guitar during chorus)

e-------------------------------------------
B-------------------------------------------
G------------------------------------------- eg: during the intro,
D--2--0---------2--0----2------------------- play it twice
A--------4------------4---4--0--------------
E-------------------------------------------

Intro: (/w Riff 1) 

e-------------------------------------------
B-------------------------------------------
G--------------------77777777--99999999----- x2
D--7777777777777777--77777777--99999999-----
A--7777777777777777--55555555--77777777-----
E--5555555555555555-------------------------


e-------------------------------------------
B-------------------------------------------
G-------------------------------------------
D-------------------------------------------
A--7xxxxxxxxxxxxxxx-------------------------
E--5xxxxxxxxxxxxxxx-------------------------



Verse:
e-------------------------------------------------
B-------------------------------------------------
G--------------------------7----------------9-----
D--7----(bass in here)-----7-----(bass)-----9----- x 2
A--7-----------------------5----------------7-----
E--5----------------------------------------------



Interlude: (/w Riff 1)
e-------------------------------------------
B-------------------------------------------
G--------------------77777777--99999999----- x2
D--7777777777777777--77777777--99999999-----
A--7777777777777777--55555555--77777777-----
E--5555555555555555-------------------------


(2nd Verse is just bass and drums)
If you care, the bass is playing:

G----------------------------------------
D----------------------------------------
A--------------------55555555--77777777--
E--5555555555555555----------------------


Chorus:

e----------------------------------
B----------------------------------
G------------------7777------------ 
D--77777777--4444--7777------------ x3
A--77777777--4444--5555------------
E--55555555--2222------------------


This part might be just bass,
but it sounds cool with this: 

e-------------------------------------------------------------
B-------------------------------------------------------------
G----------------------------------------------------7--6-----
D--9xxxxxxx--7xxxxxxx--9xxxxxxx--7xxxxxxx--9xxxxxxx--7--6-----
A--7xxxxxxx--5xxxxxxx--7xxxxxxx--5xxxxxxx--7xxxxxxx--5--4-----  
E-------------------------------------------------------------


Another Interlude thing (same as intro)

Now Another Verse (same as first one)

Chorus again


I'll call this Interlude 2:

e------------------------------------------------
B--2-----2-----2-----3-----2-----2-----2-----3---
G-----2-----2-----2-----2-----2-----2-----2----2-
D------------------------------------------------ x2
A------------------------------------------------
E------------------------------------------------

e--------------------------------------
B--------------------------------------
G--------------------7777777777777777--
D--4444444444444444--7777777777777777--
A--4444444444444444--5555555555555555--
E--2222222222222222--------------------

e--------------------------------------
B--------------------------------------
G--------------------9999999977777777--
D--7777777777777777--9999999977777777--
A--7777777777777777--7777777755555555--
E--5555555555555555--------------------

Chorus again

Then repeat the Intro thing a bunch of times



All done.  Nice and easy.

Email me @ KyleL_ff@hotmail.com for comments, screw-ups, whatever