Blink 182 - Story Of A Lonely Guy, аккорды

Прокрутка
Тональность
Шрифт
100
this is right, thats all i got to say!

e-----------------------------------------------------------
b--------10-10-10--12-12-12-12-12-12-12-12-12-12------------
g--9-9-9----------------------------------------------------
D-----------------------------------------------------------
A-----------------------------------------------------------
E-----------------------------------------------------------

e-----------------------------------------------------------
b--------10-10-10--12-12-12-10-10-10-10-10-10-10------------
g--9-9-9----------------------------------------------------
D-----------------------------------------------------------
A-----------------------------------------------------------
E-----------------------------------------------------------

thats the intro then it goes into this

e-----------------------------------------------------------
b-----------------------------------------------------------
g-----------------------------------------------------------
D-----------------------------------------------------------
A---0-0-0-0-0-0-0-0----2-2-2-2-2-2-2-2----4-4-4-4-4-4-4-4-4-
E-----------------------------------------------------------

e-----------------------------------------------------------
b-----------------------------------------------------------
g-----------------------------------------------------------
D-----------------------------------------------------------
A---5-5-5-5-5-5-5-5-----------------------------------------
E-----------------------------------------------------------

I got it from the book so yeah