Blink 182 - T, аккорды

Прокрутка
Тональность
Шрифт
100
blink-182 , t.v..
 Tabbed by david , rancidtunasalad@hotmail.com.
  
Intro (clean) quite fast

e|----------|----------|      e|---------------| 
b|----------|----------|      b|---------------|
g|----------|----------|      g|---------------|  d|----------|---3-3-3--| (x3) d|---------------|
a|---3-3-3--|1-1-1-1---| then a|-----14--14--14|
E|1-1-1-1---|----------|      e|12-12--12--12--|

then play this part quite hard

e|-------------------|
b|-------------------|
g|-------------------|
d|-------------------|
a|3-3-3--8-8-8--5-5-5|
E|1-1-1--6-6-6--3-3-3| 
:: Ultimate Guitar Archive :: 
http://www.ultimate-guitar.com