Blink 182 - Violence, аккорды

Прокрутка
Тональность
Шрифт
100
verse
E-----------------------------
B-----------------------------
G-----------------------------
D---3-------1------3-3--------
A-3---3---1---1----3-3--------
E-------3-------1--1-1--------

chorus
E-----------------------------
B-----------------------------
G-----------------------------
D-7-7-5---5-3-7---------------
A-7-6-5---5-3-7---------------
E-5-5-3-0-3-1-5---------------

interlude
E-----------------------------
B-----------------------------
G-----------------------------
D-----------------------------
A-7-7---7-7---7-7---9-9-------
E-----5-----5-----7-----7-----

end on
E-----------------------------
B-----------------------------
G-----5-----------------------
D-5-7-5-5---------------------
A-5-7-3-5---------------------
E-3-5---3---------------------

enjoy and fuck you all