Blink 182 - First Date, аккорды

Прокрутка
Тональность
Шрифт
100
первую часть я так и не подобрал, если кто знает скиньте мне на МыLО.

     
e- 
 -
 |--5---------
 |--5---------
 |--3---------
e-
  In the car i jast...... 
e----
 ----
 |--55--55-55-55-
 ----
 ----
e----
   ПРИПЕВ.
e---------
 --222----
 |--5-5----5-5-222----
 |--5-5----5-5-222-3-5  4раза
 |--3-3----2-2-----3-5
e------1-3
        Lets go torn wa......
riff1
e---
 ---
 |-55----------- 
 |-55--22--33-55 2раза
 |-33--22--33-55 глушение струн.
e|---------11-33
  сколько раз бить по струнам разберетесь сами.


Продалжение выше написаново.Только с Distoksion.
e-----------------------
 -----------------------
 |-9999/55-10101010/55----7777-55555 3раза 
 |-9999/55-10101010/55----7777-55555
 |-7777/33--8-8-8-8/33----5555-33333
e-----------------------
   потом припев.
В принципе все, подобрал я ее мин/за 20
 
 

Видео