Blink 182 - Mothers Day, аккорды

Прокрутка
Тональность
Шрифт
100
Band: Blink 182
Song: Mothers Day (track 15)
Album: Take off your pants and jacket Red Version (plane on the cd)

mute every other time

e-------------------|
B-------------------|
G-------------------|
D-------------------|
A|-0-0-0-0-0--------------------|      X3
E|-0-0-0-0-0--------------------|

then

e-------------------|
B-------------------|
G-------------------|
D-------------------|
A|-3-3-3-3-2-2-2-2--------------|
E|-3-3-3-3-2-2-2-2--------------|

 
 

Видео