Blink 182 - Adam's Song, аккорды

Прокрутка
Тональность
Шрифт
100
Intro: x2
------------------------------------------------------------------------------
------------------------------------------------------------------------------
------------------------------------------------------------------------------
-----2---------2--------2---------2---------2---------2---------2---------2---
-0------3--0-----3--------3---------3---------3---------3--------3----------3-
----------------------3--------3---------1---------1---------0--------1-------

Verse:
-----------------------------------------------------------------
-----------------------------------------------------------------
-5-5-5-5-5-5------------------2-2-2-2-2-2------------------------
-5-5-5-5-5-5--3-3-3-3-3-3-----2-2-2-2-2-2---3-3-3-3-3-3----------
-3-3-3-3-3-3--3-3-3-3-3-3-----0-0-0-0-0-0---3-3-3-3-3-3----------
-------------------1-1-1-1-1-1-----------------------1-1-1-1-1-1-

Bridge:
------------------------------------------------------------------------------------
------------------------------------------------------------------------------------
----0---------0-----------2----------2----------------------------------------------
-------3---------3----0------3---0------3-----2---------2---------2---------2-------
-3---------3---------------------------------0-----3---0-----3---------3----------3-
--------------------------------------------------------------------1----------1----

Chorus:
1st Part:
------------------------------------------------------------------------
------------------------------------------------------------------------
-----5-5-5-5-5-5----7-7-7-7-7-7---2-2-2-2-2-2---------------------------
-----5-5-5-5-5-5----7-7-7-7-7-7---2-2-2-2-2-2--3-3-3-3-3-3--------------
-----3-3-3-3-3-3----5-5-5-5-5-5---0-0-0-0-0-0--3-3-3-3-3-3--------------
------------------------------------------------------------1-1-1-1-1-1-

2nd part:
-------------------------------------------------------------------
-------------------------------------------------------------------
----5-5-5-5-5-5---7-7-7-7-7-7---2-2-2-2-2-2-2-10-10-10-10-10-10----
----5-5-5-5-5-5---7-7-7-7-7-7---2-2-2-2-2-2-2-10-10-10-10-10-10----
----3-3-3-3-3-3---5-5-5-5-5-5---0-0-0-0-0-0-0--8--8---8---8---8--8-

Riff during Piano part:
G|----5-
D|--5---
 
 

Видео