Blink 182 - All The Small Things, аккорды

Прокрутка
Тональность
Шрифт
100
Intro:
e|----------------------------------------------------------------------------|
B|----------------------------6-6-6-6-6-6-6-6---------------------------------|
G|-5--------5-5-5-5-5-5-5-5---5-5-5-5-5-5-5-5---------------------------------|
D|-5---5----5-5-5-5-5-5-5-5---5-5-5-5-5-5-5-5---5-5-5-5-5-5-5-5---x-x-x-x-x-x-|
A|-3---5----3-3-3-3-3-3-3-3---3-3-3-3-3-3-3-3---5-5-5-5-5-5-5-5---x-x-x-x-x-x-|
E|-----3----------------------------------------3-3-3-3-3-3-3-3---x-x-x-x-x-x-|

e|-------| x2
B|-------| 
G|-------|
D|-3-3-3-|
A|-3-3-3-|
E|-1-1-1-|

Verse:
play the verse and then play the second verse.
e|------------------------------------------------------------------------| x4
B|------------------------------------------------------------------------|
G|-5-5-5-5-5-5-5-5--------------------------------------------------------|
D|-5-5-5-5-5-5-5-5----5-5-5-5-5-5-5-5----3-3-3-3-3-3-3-3----5-5-5-5-5-5-5-|
A|-3-3-3-3-3-3-3-3----5-5-5-5-5-5-5-5----3-3-3-3-3-3-3-3----5-5-5-5-5-5-5-|
E|--------------------3-3-3-3-3-3-3-3----1-1-1-1-1-1-1-1----3-3-3-3-3-3-3-|

Verse 2:
na na na na na na na....
e|-------------------------------------------------------------------------| x2
B|-------------------------------------------------------------------------|
G|-5-5-5-5-5-5-5-5---5-5-5-5-5-5-5-5---------------------------------------|
D|-5-5-5-5-5-5-5-5---5-5-5-5-5-5-5-5----5-5-5-5-5-5-5-5----3-3-3-3-3-3-3-3-|
A|-3-3-3-3-3-3-3-3---3-3-3-3-3-3-3-3----5-5-5-5-5-5-5-5----3-3-3-3-3-3-3-3-|
E|--------------------------------------3-3-3-3-3-3-3-3----1-1-1-1-1-1-1-1-|

Solo:
e|-------------------------------------------------------------------------| x2
B|-------------------------------------------------------------------------|
G|-5-5-5-5-5-5-5----10-10-10-10----9-9-9-9---7-7-7-7-7-7-7-----------------|
D|-x-x-x-x-x-x-x----x--x--x--x-----x-x-x-x---x-x-x-x-x-x-x--x-x-x-x--3-3-3-|
A|-3-3-3-3-3-3-3----8--8--8--8-----7-7-7-7---5-5-5-5-5-5-5--x-x-x-x--3-3-3-|
E|----------------------------------------------------------x-x-x-x--1-1-1-|

e|---------------| x2
B|---------------|
G|-----------5/4-|
D|-3----5/4--5/4-|
A|-3----5/4--3---|
E|-1----3--------|

e|-------------------------------------------------------------------------|x2
B|-------------------------------------------------------------------------|
G|-------------------------------------------------------------------------|
D|-5---5---5---5---5---5---5---5-------5---5---5---5-------3---3---3---3---|
A|---3---3---3---3---3---3---3---3-------5---5---5---5-------3---3---3---3-|
E|-------------------------------------------------------------------------|

Structure:
Intro x2
Verse x4
Verse 2 x2
Solo x5
Verse x2
Instrumental part x2
Verse 2 x2
 
 

Видео