Blondie - One Way Or Another (bass), аккорды

Прокрутка
Тональность
Шрифт
100
Intro:
G-----------------------|
D-----------------------|
A--5-4-3-2------2-3-4-5-|
E-----------------------|

G------------------------------------|
D------------------------------------|
A-5---5---5---5-5432---2---2---2-234-|
E---5---5---5--------2---2---2-------|

"One way, or another..."
G-------------------------------------|
D-------------------------------------|
A--5---5---5---5-5432---2---2---2-234-|
E----5---5---5--------2---2---2-------|

G-------------------------------------|
D-------------------------------------|
A--5---5---5---5-5432---2---2---2-----|
E----5---5---5--------2---2---2-------|

"I will drive past your house..."
G------------------------------------|
D------------------------------------|
A--2--2-0---4--4-2---2--2-0---2--240-| x2
E------2--------4--------2-----------|

G-----------|
D-----------|
A-3-4-5-0-/-|
E-----------|

"One way, or another..."
G-------------------------------------|
D-------------------------------------|
A--5---5---5---5-5432---2---2---2-234-|
E----5---5---5--------2---2---2-------|

G-------------------------------------|
D-------------------------------------|
A--5---5---5---5-5432---2---2---2-----|
E----5---5---5--------2---2---2-------|

"And if the lights are all out..."
G-----------------------------------|
D-----------------------------------|
A-2--2-0---4--4-2---2--2-0---2--240-| x2
E-----2--------4--------2-----------|

G-----------|
D-----------|
A-3-4-5-0-/-|
E-----------|

GUITAR SOLO:
G-------------------|
D-------------------|
A-----------22-2-44-| x2
E-22-2-22-2---------|

G----------------------------------|
D----------------------------------|
A-----0000111122224444444455555555-|
E-2222-----------------------------|

"One way, or another..."
G-------------------------------------|
D-------------------------------------|
A--5---5---5---5-5432---2---2---2-234-|
E----5---5---5--------2---2---2-------|

G-------------------------------------|
D-------------------------------------|
A--5---5---5---5-5432---2---2---2-----|
E----5---5---5--------2---2---2-------|

Outro:
G-------------------|
D-------------------|
A---5-5-5-5-2-2-2-2-|
E--5-5-5-5-2-2-2-2--| Repeat until fade
 
 

Видео