Blondie - One Way, аккорды

Прокрутка
Тональность
Шрифт
100
Intro:
-------------------|
-------------------|
-----77--777-------|
-----77--777-------|
-----55--555-------|
-------------------|

Verse Repeat and listen to the song for timeing
---------------------------------------|
---------------------------------------|
-----77--777-----7654-----444----------|
-----77--777-----7654-----444----------|
-----55--555-----5432-----222----------|
---------------------------------------|

Chorus:
play this twice then....
----------------------------------------|
--------------2-------------------------|
--------------2-------------------------|
--5--4--6--4--2--4----------------------|
--5--4--6--4-----4----------------------|
--3--2--4--2-----2----------------------|

Chorus extention:
-------------------------------|
-----2-------------------------|
-----2--4----------------------|
--5--2--4--2--444444-----------|
--5-----2--2--444444-----------|
--3--------0--222222-----------|

Solo:
play twice then...
---4-5-4-0----4-5-4-0----4-5-4-0---------0-----------|
---------------------------------0h2---0-------------|
-----------------------------------------------------|
-----------------------------------------------------|
-----------------------------------------------------|
-----------------------------------------------------|

---555--4--------------0-----555--4-------------0----|
---777--55-----------0-------777--55---5/7----0------|
---------6---0h6-------------------6-----------------|
-----------------------------------------------------|
-----------------------------------------------------|
-----------------------------------------------------|

Then slide up the neck and to the verse:
---4/555/4/555-------5/777/5/777----------------------|
---4/555/4/555-------5/777/5/777----------------------|
------------------------------------------------------|
------------------------------------------------------|
------------------------------------------------------|
------------------------------------------------------|
 
 

Видео