Blondie - Heart Of Glass (bass), аккорды

Прокрутка
Тональность
Шрифт
100
INTRO:
(x3)          (x4)
G|-----------|--.-.-.-----------|
D|-r-r-r-r---|-2-2-2---2h4-.--|
A|-----------|-------------2--|
E|-----------|------------------|

VERSE:
G|-.-.-.-----|-----------|-----------|-.-.-.---------|-.-.-.---------|
D|-2-2-2-2h4-|-.-.-.-----|-.-.-.-----|-2-2-2---2h4-.-|-2-2-2---2h4-.-|
A|-----------|-4-4-4-4h2-|-4-4-4-4h2-|-------------2-|-------------2-|
E|-----------|-----------|-----------|---------------|---------------|

G|-.-.-.---------|---------|-----------|-.-.-.---------|
D|-2-2-2---2h4-.-|---------|-.-.-.-----|-2-2-2---2h4-.-|
A|-------------2-|-4-------|-4-4-4-4h2-|-------------2-|
E|---------------|---------|-----------|---------------|

PRЕ-CHORUS:
G|---9---11----12----13-|
D|----------------------|
A|-7---9----10----11----|
E|----------------------|

1st & 3rd CHORUS/END:
G|---------|---------|---------|---------|---------|---------|
D|-.-.-.-.-|-.-.-.-.-|---------|---------|-.-.-.-.-|-.-.-.-.-|
A|-0-0-0-0-|-0-0-0-0-|-.-.-.-.-|-.-.-.-.-|-0-0-0-0-|-0-0-0-0-|
E|---------|---------|-0-0-0-0-|-0-0-0-0-|---------|---------|

G|-.-.-.-.-|---------|---------|---------|---------|---------|
D|-4-4-4-4-|---------|-.-.-.-.-|-.-.-.-.-|---------|---------|
A|---------|-2-4-5-6-|-0-0-0-0-|-0-0-0-0-|-.-.-.-.-|-.-.-.-.-|
E|---------|---------|---------|---------|-0-0-0-0-|-0-0-0-0-|

G|---------|---------|-.-.-.-.-|---4---6---7---8-|
D|-.-.-.-.-|-.-.-.-.-|-4-4-4-4-|-----------------|
A|-0-0-0-0-|-0-0-0-0-|---------|-2---4---5---6---|
E|---------|---------|---------|-----------------|

2nd CHORUS:
G|----------|---------|---------|---------|---------|---------|
D|-.-.-.-.--|-.-.-.-.-|---------|---------|-.-.-.-.-|-.-.-.-.-|
A|-0-0-0-0--|-0-0-0-0-|-.-.-.-.-|-.-.-.-.-|-0-0-0-0-|-0-0-0-0-|
E|----------|---------|-0-0-0-0-|-0-0-0-0-|---------|---------|

(x3)
G|---------|---9---11----12----13---|
D|---------|-----------------------|
A|-.-.-.-.-|-7---9----10----11-----|
E|-0-0-0-0-|------------------------|

G|---------|---------|---------|---------|---------|---------|
D|-.-.-.-.-|-.-.-.-.-|---------|---------|-.-.-.-.-|-.-.-.-.-|
A|-0-0-0-0-|-0-0-0-0-|-.-.-.-.-|-.-.-.-.-|-0-0-0-0-|-0-0-0-0-|
E|---------|---------|-0-0-0-0-|-0-0-0-0-|---------|---------|

G|-.-.-.-.-|---4---6---7---8-|
D|-4-4-4-4-|-----------------|
A|---------|-2---4---5---6---|
E|---------|-----------------|
 
 

Видео