Blondie - Maria, аккорды

Прокрутка
Тональность
Шрифт
100
Проигрыш:
Riff 1: 
   *     *     *    *     *     *    *     *     *    *     *     *
a--7-7-7-7-7-7-7-7--6-6-6-6-6-6-6-6--4-4-4-4-4-4-4-4--2-2-2-2-2-2-2-2--|
e--5-5-5-5-5-5-5-5--4-4-4-4-4-4-4-4--2-2-2-2-2-2-2-2--0-0-0-0-0-0-0-0--|

   *     *     *    *     *     *    *     *     *    *     *     *
d-------------------9-9-9-9-9-9-9-9--7-7-7-7-7-7-7-7--7-7-7-7-7-7-7-7--|  
a--7-7-7-7-7-7-7-7--7-7-7-7-7-7-7-7--5-5-5-5-5-5-5-5--5-5-5-5-5-5-5-5--|
e--5-5-5-5-5-5-5-5-----------------------------------------------------|
Дальше такой же ритмический рисунок.

Куплет:
Riff 2:
d-----------------------------------------------------7-7-7-7-7-7-7-7--|
a--7-7-7-7-7-7-7-7--2-2-2-2-2-2-2-2--4-4-4-4-4-4-4-4--5-5-5-5-5-5-5-5--|
e--5-5-5-5-5-5-5-5--0-0-0-0-0-0-0-0--2-2-2-2-2-2-2-2-------------------|

d------------------------------------6/7-7-7--6/7-7-7--6/7-7-7--6/7-7-7-|
a--7-7-7-7-7-7-7-7--2-2-2-2-2-2-2-2--4/5-5-5--4/5-5-5--4/5-5-5--4/5-5-5-|
e--5-5-5-5-5-5-5-5--0-0-0-0-0-0-0-0-------------------------------------|

RIFF 3: 
d--7-7-7-7-7-7-7-7--9-9-9-9-9-9-9-9-------------------------------------|
а--5-5-5-5-5-5-5-5--7-7-7-7-7-7-7-7--4-4-4--2-4-4-4--2-4----------------|
e------------------------------------2-2-2--0-2-2-2--0-2--0-2-4-5-4-2-0-|  

A                         E
She moves like she don´t care
F#m                      D
Smooth as silk, cool as air 
A        E                D
Ooh, it makes you wanna cry 
            
A                       E
She doesn´t know your name 
F#m                      D
And your heart beats like a subway train 
A        E                D
Ooh, it makes you wanna die 

D               E         F#m
Ooh, don´t ya wanna take her 
D               E           F#m
Ooh, wanna make her all your own

D               E        F#m
Maria, you´ve got to see her
D               E         F#m
Go insane and out of your mind 
D         E    F#m
Regina, ave Maria 
D               E         F#m
А million and one candle lights
            
A                       E
I´ve seen this thing before 
F#m                      D
In my best friend and the boy next door 
A        E                D
Fool for love and full of fire

A                       E
Won´t come in from the rain
F#m                      D
She´s oceans running down the drain
A        E           D
Blue as ice and desire

D               E     F#m
Don´t you wanna make her
D               E         F#m
Ooh, don´t you wanna take her home

D               E        F#m
Maria, you´ve got to see her
D               E         F#m
Go insane and out of your mind
D          E  F#m
Regina, ave Maria
D               E         F#m
А million and one candle lights

D               E     F#m
Ooh, don´t you wanna break her
D               E     F#m
Ooh, don´t you wanna take her home
            
A                       E
She walks like she don´t care
F#m                   D
Walking on imported air
A        E           D
Ooh, it makes you wanna die

D               E        F#m
Maria, you´ve got to see her
D               E        F#m
Go insane and out of your mind
D            E  F#m
Regina, ave Maria
D               E        F#m
А million and one candle lights
            
D               E        F#m
Maria, you´ve got to see her
D               E        F#m
Go insane and out of your mind
D           E  F#m
Regina, ave Maria
D               E        F#m
А million and one candle lights
     
D               E        F#m
Maria, you´ve got to see her
D               E        F#m
Go insane and out of your mind
D           E F#m
Regina, ave Maria
D               E        F#m
А million and one candle lights

Комментарий автора:

Проигрыш:
Играть надо на акустическом звуке с очень легким драйвом.
Первые две ноты (не -5-5-, а просто -5-) играются открыто 
(без глушения), остальные с (-7-7- -7-) глушением. 
Ноты которые играются без глушения я обозначу (*), 
тогда получится правильный ритмический рисунок. 
Для непонятливых объясняю, счет такой: раз два три; раз два три; раз два.
Сильная доля идет на "раз".  

Кто не понял, что такое-6/7- -4/5-
Вот здесь Вы делаете слайд с 4на5 лад и с 6на7. 
 
 

Видео