Blondie - One Way Or Another, аккорды

Прокрутка
Тональность
Шрифт
100
Main Riff:
e|----------------------------------|
B|----------------------------------|
G|----------------------------------|
D|-77--7-7~7--7-7~7--7-7~7--7-6-5-4-|
A|-55--5-5~5--5-5~5--5-5~5--5-4-3-2-|
E|----------------------------------| 

|-----------------------------------|
|-----------------------------------|
|-----------------------------------|
|-44--4-4~4--4-4~4---4-4~4--4-5-6-7-|
|-22--2-2~2--2-2~2---2-2~2--2-3-4-5-|
|-----------------------------------|
 
 

Видео