Blondie - Rapture, аккорды

Прокрутка
Тональность
Шрифт
100
From: Daniel M.			YourMyS0n@aol.com


Rapture	by Blondie
================================

Riff #1

G------------------------------------------------
D-------2-0---0----4--5---------2-0---0----4--2--
A-----------2-----------------------2------------
E--0--0--------------------0--0------------------


Riff #2

G-----------------------------------------------
D--------------------2--------------------------
A--------------3-----------------------3--------
E--1-----5-----------------1-----5-----------3--



Song Structure:

Riff 1..... x10
Riff 2..... x1
Riff 1..... x8
Riff 2..... x1
Riff 1..... x27   (I may have misscounted this part. May be 28. Use your judgement)
Riff 2..... x1
Riff 1..... x20


There ya go people. Pretty funky. Fun to play. 

======================================