Bones - Cut, аккорды

Прокрутка
Тональность
Шрифт
100
e||------------------------------------------------------------|
B||------------------------------------------------------------|
F#|------------------------------------------------------------|
C||------0------0------0------0----0--0---0--0---0--0----------|
G#|----0--0---0--0---0--0---0--0-----0------0------0----0---0--|
C||--5------5------3------3------1------1------1------1---0----|

e||------------------------------------------------------------|
B||------------------------------------------------------------|
F#|------------------------------------------------------------|
C||------0------0------0------0----0--0---0--0---0--0---0--0---|
G#|----0--0---0--0---0--0---0--0-----0------0------0------0----|
C||--5------5------3------3------1------1------1------1--------|

e||------------------------------------------------------------|
B||------------------------------------------------------------|
F#|------------------------------------------------------------|
C||------0------0------0------0----0--0---0--0---0--0----------|
G#|----0--0---0--0---0--0---0--0-----0------0------0----0---0--|
C||--5------5------3------3------1------1------1------1---0----|

e||------------------------------------------------------------|
B||------------------------------------------------------------|
F#|------------------------------------------------------------|
C||------0------0------0------0----0--0---0--0---0--0---0--0---|
G#|----0--0---0--0---0--0---0--0-----0------0------0------0----|
C||--5------5------3------3------1------1------1------1--------|
 
 
Свернуть Распечатать

Видео