Booker T And The Mgs - Green Onions, аккорды

Прокрутка
Тональность
Шрифт
100
Booker T and the MG's - Green Onions

E Riff
----------------------------
----------------------------
----------------------------       Progression
----------------------------           E 4x       
----------5-7---------------           A 2x
------0-7-------------------           E 2x  
                                       B 1x
A Riff                                 A 1x
----------------------------           E 2x
----------------------------
----------------------------  
--------5-7-----------------
----0-7---------------------
----------------------------

B Riff
----------------------------
----------------------------
----------------------------
---------7-9----------------
-------9--------------------
-----7----------------------
 
 

Видео