Booker T And The Mgs - Green Onions, аккорды

Прокрутка
Тональность
Шрифт
100
                            play this throughout the song


    (x4)    (x2)        (x2)                          (x2)
G|---------|---------|---------|-------------------|---------|
D|---------|---------|---------|-------------------|---------|   
A|---------|2-2-5-6-7|---------|4-4-7-8-9-2-2-5-6-7|---------| Repeat
E|2-2-5-6-7|---------|2-2-5-6-7|-------------------|2-2-5-6-7|

or
    (x4)      (x2)       (x2)                          (x2)
G|---------|---------|---------|-------------------|---------|
D|---------|----0-1-2|---------|----2-3-4-----0-1-2|---------|
A|----0-1-2|2-2------|----0-1-2|4-4-------2-2------|----0-1-2| Repeat
E|2-2------|---------|2-2------|-------------------|2-2------|
 
 

Видео