Booker T And The Mgs - Time Is Tight, аккорды

Прокрутка
Тональность
Шрифт
100
Time Is Tight - Booker T And The MG's

  riff 1            riff 2
G|----------------|----------------|
D|----------------|3-3030-3-0-3-0-0|
A|3-3030-3-0-3-0-0|------3---3---3-|
E|------3---3---3-|----------------|
  
  chorus
G|-------------------------------------------------------------|
D|5--55--55--5----------5-55-------55--55--5----------5-533----|
A|--5---5---5--5------57-----55-------5---5--5------57-----7755|
E|---------------3--57------7--773-------------3--57-----------|

song order:
riff 1 x5
riff 2 x2
riff 1 x5
riff 2 x2
riff 1 x2
chorus
riff 1 x3
riff 2 x2
riff 1 x6
riff 2 x2
riff 1 x2
chorus
riff 1 x3
riff 2 x2
riff 1 until fade out

tabbed by Achilles (blue_sincere@hotmail.com)
 
 

Видео