Bowie David - Suffragette City, аккорды

Прокрутка
Тональность
Шрифт
100
VERSES

G|-2-2-------------2-2--------------||-2-2--------------------------0-0-|
D|------4-4-2-2-4-------4-4-2-2-4-4-||------4-4-2-2-4--3-3-3-3-3-3------|
A|----------------------------------||----------------------------------|
E|----------------------------------||----------------------------------|

G|-2-2------------------------------|
D|------4-4-2-2-4--3-3---3--5-5---5-|
A|---------------------3--------5---|
E|----------------------------------|

G|-2-2----------------------------------------------|
D|------4-4-2-2-------------------------------------|
A|--------------(0)-2-2-2-2-2-2-4-4-5-5-3-3-0-----0-|
E|---------------------------------------------1----|

G|------------------|
D|-3-3---3--5-5---5-|
A|-----3--------5---|
E|------------------|

CHORUS

G|-2-2---------------------------------------0-0-0-0-0-0-1-1-||2-2-2-2-2-2-2-2-|
D|-----4-4-2-2-------------------3---3-----------------------||----------------|
A|-------------(0)-5-5-3-3-0---0---3---3---3-----------------||----------------|
E|---------------------------1-----------3-------------------||----------------|

BREAK

G|-2-2----------------------------||-2-2-2-2-2-2-2-2------------------|
D|------4-4-2-2-4-3-3-3-3-3-3-3-3-||------------------3-3-3-3-3-3-3-3-|
A|--------------------------------||----------------------------------|
E|--------------------------------||----------------------------------|

G|-2--2-2--7-5------------------0-0-||-2--2-2--7-5-------------------|
D|--------------7--3-3-3-3-3-3------||--------------7--3-3-3-3-3-3-3-|
A|----------------------------------||-------------------------------|
E|----------------------------------||-------------------------------|

G|-------------------|
D|-2-2-2--2-2--2-2-2-|
A|-------------------|
E|-------------------|

G|-------------------|-------------------|-(0)-2---| WHAM
D|-2-2-2--2-2--2-2-2-|-2-2-2--2-2--2-2-2-|---------| BAM
A|-------------------|-------------------|---------| THANK YOU MAAM
E|-------------------|-------------------|---------|
 
 

Видео