Bowie David - Heroes, аккорды

Прокрутка
Тональность
Шрифт
100
Riff on D chord
G|----------------------------------------------------------------
D|----------------------------------------------------------------
A|---5------5------5-----5----------------------------------------
E|-----7-5----7-5---7-5----7-5------------------------------------

Riff on G chord
G|----------------------------------------------------------------
D|---5------5------5-----5----------------------------------------
A|-----7-5----7-5---7-5----7-5------------------------------------
E|----------------------------------------------------------------

Pre Chorus
Riff on C chord Riff on D Chord
G|----------------------------------------------------------------
D|----------------------------------------------------------------
A|---3------3------------5------5---------------------------------
E|-----5-3----5-3----------7-5----7-5-----------------------------

Riff on Am chord Riff on Em Chord
G|----------------------------------------------------------------
D|----------------------------------------------------------------
A|-------------------------------5-6-7-7-7------------------------
E|---7-6-5-5-5-------------5-6-7----------------------------------


Riff on D chord
G|----------------------------------------------------------------
D|----------------------------------------------------------------
A|---5------5------5-----5----------------------------------------
E|-----7-5----7-5---7-5----7-5------------------------------------

Riff on C chord Riff on G chord Riff on D chord
G|----------------------------------------------------------------
D|-----2-3-4------------------------------------------------------
A|---3--3-3-3---------2-3-4-------------5-------------------------
E|------------------3--3-3-3--------------7-5---------------------
 
 

Видео