Bowie David - Ashes To Ashes, аккорды

Прокрутка
Тональность
Шрифт
100
Intro
G|-------------------------8------
D|------8---------6---------------
A|-------------------x6-6---------
E|-6-6------x4-4--------------2-4- 2x

G|---------------------------8---------------------------8--
D|------8-6---------6----------------8-------6--------------
A|----------8----------x6-6--------------------4----6-6-----
E|-6-6---------4-4-------------x6-6----x4-4------6----------

G|---------------------------8-------------
D|------8---------6----------------------8-
A|---------------------x6-6----------------
E|x6-6------x4-4----------------2-4-6-6----

do you remember...
G|-----------------------------------------------6-------------
D|-----6-----------6--------3-----------3----------------------
A|-----------------------------------------3-4-4---4--3-4-4-4--
E|-4-4----4--4-4-4------1-1----1--1-1-1------------------------

-----8-------------
-------------------
-6-6----6--4-6-6-6-
-------------------

G|--------------------------6-5-------------------------------------------------
D|-----4-3---4-4----------------6-3------------4-3--------4~------6---------7---
A|---------4----------1-4-4---------6-3------------4----------------------------
E|-2-2------------2~-------------------/1--2-2-------2-2------4-4---4---5-5---5-

G|-----------------------------------------------------8--------8-
D|-----8--------8------3--------3------6--------6-----------------
A|-------------------------------------------------6-6---6-x6-6---
E|-6-6---6-x6-6----1-1---1-x1-1----4-4---4-x4-4-------------------

-----------------------6------6------------
-----4-3--------------------------3--------
---------4---------4-4---4--4-------3------
-2-2-------2-2--2----------------------1~--

ashes to ashes...
G|---------------------6---------------------------------------
D|-----4--------6----------------------------------------------
A|-----------------4-4---4------------4------------------------
E|-2-2---2--4-4-------------4-6-6--6----2--2--2--2--4--4--4--4-

repeat everything until now one time 
and end with repeating the intro.
 
 

Видео