Bowie David - Slow Burn (bass), аккорды

Прокрутка
Тональность
Шрифт
100
Verse:
G|----------------------------------------------2-0-|
D|-33333---0---33333---0---22222---0---------22-----|
A|-------3---3-------3---3-------3---3-00-33--------|
E|--------------------------------------------------|

Chorus:
G|----------------------------------------------|
D|---------------------33-3---0-3-3-2-2-0-0-----|
A|-55-5-0-3-55-5-5-0-3------3---------------3-3-|
E|----------------------------------------------|

G|-------------------|
D|-------------------|
A|-11111111----------|
E|----------33333333-|
 
 

Видео