Bowie David - Gene Genie (bass), аккорды

Прокрутка
Тональность
Шрифт
100
Intro: x2
g------------------------------------------------------------------
d------------------------------------------------------------------
a----------------11-h-12---11------------------11-h-12--11---------
e---12--12--12-----------------12---12---12-------------------12---

For the verse you play the intro for a while.

Chorus (gene genie she........)
g------------------------------------ }
d------------------------------------ } x4
a-----------6--7---6----------------- }
e--7--7--7--------------7------------ }

woo hoo waoo wahoooooooooooo part goes

g---------------------------------------- }
d---------------------------------------- } x2
a--------------4-5--4------4--11-h-10---- }
e---5--5--5------------5----------------- }
 
 

Видео