Bowie David - Let's Dance, аккорды

Прокрутка
Тональность
Шрифт
100
VERSE:
G|----------------------|-----------------------|------------------------------|
D|----------------------|-----------------------|------------------------------|
A|----------------------|-------------6-4-3-----|--------------2-4-------------|
E|-6-4--3--1-6-6--4-5-6-|-6-6--4-5-6---------6/-|-2--2-2--2-2-------2-2-2--2-2-|

G|--------------------------|------------------------|-------------------------|
D|---------------------- 8/-|------------------------|-------------------------|
A|--------------------------|------------------------|-------------6--4--3-----|
E|-6--4--3-1-6-6--4-5-6-----|-6--4--3--1--6-6--4-5-6-|-6-6--4-5-6-----------6/-|

G|--------------------------|------------------------|------------------------|
D|--------------------------|------------------------|------------------------|
A|--------------------------|------------------------|------------------------|
E|-2--2-2--2-2--2--2-2--2-2-|-6--4--3--1--6-6--4-5-6-|-6--4--3--1--6-6--4-5-6-|

G|-----------------------|----------------------------|------------------------|
D|-----------------------|----------------------------|------------------------|
A|-------------6-4-3-----|-------------2-4------------|------------------------|
E|-6-6--4-5-6---------6/-|-2--2-2--2-2-----2-2-2--2-2-|-6--4--3--1--6-6--4-5-6-|

CHORUS:
last bar play 4X
G|--------------------|---------------|---------------------|------------------|
D|--------------------|---------------|---------------------|------------------|
A|-6-4-------4-6-4--6-|-6-4---------6-|-6-4-------1-3-----4-|--6-6-6-6-6-6-6-6-|
E|-----6-5-4----------|-----6-5-4-6---|-----6-4--------1----|------------------|

VERSE CHANGE:
G|------------------------|-----------------------------|
D|------------------------|-----------------------------|
A|------------------------|-------------4-5-6--4--3-----|
E|-6--4--3--1--6-6--4-5-6-|-6-6--4-5-6---------------6/-|
 
 

Видео