Bowie David - Afraid, аккорды

Прокрутка
Тональность
Шрифт
100
David Bowie - Afraid
Tabbed By: Myke
EMail: A_Violet_Fluid@hotmail.com

Standard Tuning

Intro:

|--11-11-11--11-11-11--11-11--10-10-10--10-10-10--10-10---9---9---9--9---9--9--|
|--13-13-13--13-13-13--13-13--11-11-11--11-11-11--11-11--10--10--10-10--10-10--|
|--12-12-12--12-12-12--12-12--10-10-10--10-10-10--10-10--10--10--10-10--10-10--|
|------------------------------------------------------------------------------|
|------------------------------------------------------------------------------|
|------------------------------------------------------------------------------|

Verse:

|--------------------------------------------------------|
|--------------------------------------------------------|
|--12-12-12--12-12-12--12-12--10-10-10--10-10-10--10-10--|
|--12-12-12--12-12-12--12-12--10-10-10--10-10-10--10-10--|
|--10-10-10--10-10-10--10-10---8--8--8---8--8--8---8--8--|
|--------------------------------------------------------|
   ....................................................

|----------------------------------------|
|----------------------------------------|
|--9-9-9--9-9-9--9-9--8-8-8--8-8-8--8-8--|
|--9-9-9--9-9-9--9-9--8-8-8--8-8-8--8-8--|
|--7-7-7--7-7-7--7-7--6-6-6--6-6-6--6-6--|
|----------------------------------------|
   ....................................

Does Anyone know The Chords For The Bridge Or Chorus?
If You Do, Please Email Me To Satisfy My Curiosity.

A_Violet_Fluid@hotmail.com