Bowie David - As The World Falls Down, аккорды

Прокрутка
Тональность
Шрифт
100
David Bowie - As The World Falls Down
Tabbed By: Myke
EMail: A_Violet_Fluid@hotmail.com


Standard Tuning

Intro/Verse:

|--0----2----2----1--|
|--2----2----3----3--|
|--2----2----2----2--|
|--2----4----0----0--|
|--0----4----0----0--|
|-------2------------|

Chorus:
  
|--2----1----0----2----0----2--|
|--3----3----2----2----2----2--|
|--4----2----2----2----2----3--|
|--4----0----2----4----2----2--|
|--2----0----0----4----0----4--|
|-----------------2---------2--|

|--0----2----2----1--|
|--2----2----3----3--|
|--2----2----2----2--|
|--2----4----0----0--|
|--0----4----0----0--|
|-------2------------| 

Bridge/Outro:

|--2----0--|
|--2----2--|
|--2----2--|
|--4----2--|
|--4----0--|
|--2-------|
 
 

Видео