Браво - Ах, эта девчонка, аккорды

Прокрутка
Тональность
Шрифт
100
Подвижно 4/4
    A    Amaj7     F#m           Bm      Bm7+     D
E|------------------------------------------------------------------------|
B|------------------------------------------------------------------------|
G|----4--2--4--1----------4---2---4---1-------6---4--6--3--------1--2---4-|
D|-2-------------------2------------------4------------------4------------|
A|----------------4-------------------------------------------------------|
E|------------------------------------------------------------------------|
 Ах, э-та де-вчо-нка ше-стна-дца-ти лет спе-шит на ко-нцерт ей не-льзя о-
 
     E      A     Amaj7    F#m           Bm      Bm7+
E|-----------------------------------------------------------------------|
B|-----------------------------------------------------------------------|
G|-2---1---------4-2---4---1---------4--2---4---1-------6--6--4-6--3-----|
D|-----------2--------------------2-----------------4------------------4-|
A|----------------------------4------------------------------------------|
E|-----------------------------------------------------------------------|
 по-здать. Сжи-ма-я в ла-до-шке за-ве-тный би-лет, ей ты-ся-чу а-вто-гра-

     D       E7  Bm7    E7    Bm7       E7   A
E|-------------------------------------------------------П:----------------|
B|----------------------------------------------------5--Р:----------------|
G|-1---2--4---2---1-------4--6-6-76-4---------4----6-----И:-2---2--4--2--4-|
D|---------------------7-----------------7---------------П:----------------|
A|-------------------------------------------------------Е:----------------|
E|-------------------------------------------------------В:----------------|
 фов ну-жно со-брать. Э-ту де-вчо-нку встре-тишь ве-зде. Ах, ку-да же смо

              F#m                Bm
E|-----------------------------------------------------------------------|
B|-----5----------------------------------------------------------7----3-|
G|-2--------6--6--4--2----2--2---2---4-2-------4----6--6--4--6--4--------|
D|----------------------------------------2------------------------------|
A|-----------------------------------------------------------------------|
E|-----------------------------------------------------------------------|
 трит шко-ла, а-,а- Ах, де-вчо-нку не узнать! Все фа-на-ты рок-н-рол-ла с

  D              E7  К:       Amaj
E|---------------------------О:-------------------------------------------|
B|---------------------------Н:------------5---5--7----7-----7----5--5--5-|
G|-2-2-2--2--2---4---6--4----Ц:-------------------------------------------|
D|---------------------------О:---2----4----------------------------------|
A|---------------------------В:-------------------------------------------|
E|---------------------------К:-------------------------------------------|
 ней хо-те-ли стан-це-вать. А: Толь-ко с ней. Ей - ей - ей - эй.

Ах, эта девчонка шестнадцати лет
Спешит на концерт, ей нельзя опоздать.
Сжимая в ладошке заветный билет,
Ей тысячу автографов надо собрать.
Эту девчонку встретишь везде.

Припев: 
     Ах, куда же смотрит школа,
     Девчонку не узнать!
     Все фанаты рок-н-ролла
     С ней хотели б танцевать.

Но завтра, увы, ей придется забыть
Все это, и в школу вернуться опять,
Чтоб снова послушной отличницей быть
И сидя за партой о звездах мечтать.
Эту девчонку встретишь везде.

Припев:

Концовка: Только с ней.
 
 
Свернуть Распечатать

Видео