Braxton Toni - Spanish Guitar, аккорды

Прокрутка
Тональность
Шрифт
100
E|-1--0--1--3--1--0--1-------------|
B|-3--------------------------1--0-|
G|-2-------------------------------|
D|-3-------------------------------|
A|----------------------3--2-------|
E|---------------------------------|

E|-------0-------------------|
B|-2--3-----3--2--3--2--0--2-|
G|---------------------------|
D|---------------------------|
A|---------------------------|
E|---------------------------|

E|--7--8--10--8--8--7--7----|
B|--------------------------|
G|------------------------1-|
D|------------------------2-|
A|------------------------2-|
E|--------------------------|

E|----------------------------------------|
B|-3--2--0-----0---THIS LEADS TO THE SONG-|
G|----------2-----------------------------|  
D|----------------------------------------|
A|----------------------------------------|
E|----------------------------------------|

After the song's started, you'll hear this after the first verse:
E|----0-------------|
B|-2-----3--2--0--2-|
G|------------------|
D|------------------|
A|------------------|
E|------------------|
 
 

Видео