Бригадный Подряд - Всерьёз, аккорды

Прокрутка
Тональность
Шрифт
100
        Em
D|------7--7--7--7--5--5--5--5--4--4--4--4--5--5--5-------|

        Em
D|------7--7--7--7--5--5--5--5--4--4--4--4--5--5--5-------|

        Em
D|------7--7--7--7--5--5--5--5--4--4--4--4--5--5--5-------|

        Em
D|------7--7--7--7--5--5--5--5--4--5----------------------|

   Em                        G             Bm             Em                        G           Bm
D|-4/5--5--5--5--5--5--5--5--5/7--7--7--7--7/5--5--5--5-|-4/5--5--5--5--5--5--5--5---------------------------|
A|------------------------------------------------------|---------------------------5--5--5--5--5/2--2--2--2-|

   Em                        G             Bm             Em            G        Bm
D|-4/5--5--5--5--5--5--5--5--5/7--7--7--7--7/5--5--5--5-|-4/5--5--5--5--5--5--5--4-|
A|------------------------------------------------------|--------------------------|

Em          G      Bm
Волоса, цветы, клеши,
Em           G     Bm
Кислота, трава и вши,
Em           G       Bm
Андеграунд, Joplin, Doors -
    Em       G        Bm
Ты думал что это всерьёз?

                           Em       D         G         Bm
               Так и Джим Моррисон тоже всё принял всерьёз,
                    Em       D         G         Bm
               Джим Моррисон тоже всё принял всерьёз,
                   Em       D         G         Bm
               Джим Моррисон тоже всё принял всерьёз,
                Em        G         Bm   C
               Он тоже всё принял всерьёз.

Em        G       Bm
ПТУ, дружки, портвейн,
Em           G      Bm
Дискотеки, драки, клей,
Em            G      Bm
Три булавки, Sex Pistols -
    Em       G        Bm
Ты думал что это всерьёз?

                        Em      D          G         Bm
               Так и дурак Сид Вишес всё принял всерьёз,
                  Em      D          G         Bm
               Дурак Сид Вишес всё принял всерьёз,
                Em      D          G         Bm
               Дурак Сид Вишес всё принял всерьёз,
                 Em        G         Bm   C
               Он тоже всё принял всерьёз.

G        Bm                    Em
Пять депрессий, суициды, мозг больной свело,
                    C                  G
Денег нет, подруги нет - снова не свезло,
               Bm                  Em
Семь тату, в руках гитара - в общем ты подрос,

Ты тоже думал что это всерьёз?

                           Em     D         G         Bm
               Так ведь и Курт Кобейн всё принял всерьёз,
                     Em     D         G         Bm
               Ведь и Курт Кобейн всё принял всерьёз,
                    Em     D         G         Bm
               Ведь и Курт Кобейн всё принял всерьёз,
                 Em        G         Bm
               Он тоже всё принял всерьёз.

G Bm Em C
G Bm Em

Em
Ты тоже всё принял всерьёз?
Em
Ты тоже всё принял всерьёз?
Em
Ты тоже всё принял всерьёз?
Em
Ты тоже
 
 
Свернуть Распечатать

Аппликатуры аккордов

Аккорд EmАккорд GАккорд BmАккорд DАккорд C
d__fedorovd__fedorov
автор подбора аккордов
7,642 6 04.07.2016

Видео