Бригадный Подряд - Пей, аккорды

Прокрутка
Тональность
Шрифт
100
Intro:
e|----------------------------------|---------------------------------|
B|----------------------------------|---------------------------------|
G|----------------------------------|---------------------------------|
D|--------------------------0-0-2-2-|-2-2-2-0-0-0---------------------|
A|--------------0-0-0-2-2-2---------|-------------2-2-2-0-0-0---------|
E|--0-0-0-3-3-3---------------------|-------------------------3-3-5-5-|

   Em                    G             C                     B
e|---------3-3-3-3------------------|----------3-3-3-3-----------|
B|-0-0-0-0---------------3-1-0-1-0--|--1-1-1-1---------------1-0-| x2
G|----------------------------------|----------------------------|
D|----------------------------------|----------------------------|
A|----------------------------------|----------------------------|
E|----------------------------------|----------------------------|

  Em
Все за стол, наливай по первой,
 G
Первой просто мы лечим нервы,
 C
Нужен тост, ой, за нашу встречу,
    B
Встречей тоже мы нервы лечим,
 Em
По второй, ну и на здоровье,
  G
Здоровей тоже станем вдвое,
C
А за дам нужно выпить стоя,
B
А потом за тех кто в море,

Припев:         
 C       D          G         Em
Наливай через край, улетай в тёплый рай,
 C          D         Em
Ну-ка лей, не жалей, пей!

e|----------------------------------|---------------------------------|
B|----------------------------------|---------------------------------|
G|----------------------------------|---------------------------------|
D|--------------------------0-0-2-2-|-2-2-2-0-0-0---------------------|
A|--------------0-0-0-2-2-2---------|-------------2-2-2-0-0-0---------|
E|--0-0-0-3-3-3---------------------|-------------------------3-3-5-5-|

 Em
Ну давай - за любовь, за дружбу,
 G
За детей тоже выпить нужно,
 C
Ну и чтоб не болела мама,
 B
Нахлобучим по двести граммов,
 Em
За друзей и за удачу,
 G
За соседей и за дачу,
C
И пока остаются силы - 
 B
За величие России!

Припев:         
 C       D          G         Em
Наливай через край, улетай в тёплый рай,
 C          D         Em
Ну-ка лей, не жалей, пей!

e|-----------------------------------|----------------------------------|
B|-----------------------------------|----------------------------------|
G|-----------------------------------|----------------------------------|
D|--------------------------0-0-2-2--|--2-2-2-0-0-0---------------------|
A|--------------0-0-0-2-2-2----------|--------------2-2-2-0-0-0---------|
E|--0-0-0-3-3-3----------------------|--------------------------3-3-5-5-|

    Em                    G             C                     B
e|----------3-3-3-3------------------|----------3-3-3-3------------------|
B|--0-0-0-0---------------3-1-0-1-0--|--1-1-1-1---------------1-0--------| x2р
G|-----------------------------------|-----------------------------------|
D|-----------------------------------|-----------------------------------|
A|-----------------------------------|-----------------------------------|
E|-----------------------------------|-----------------------------------|

Припев:         
 C       D          G         Em
Наливай через край, улетай в тёплый рай,
 C          D         Em
Ну-ка лей, не жалей, пей!

e|---------------------------------|------------------------------------|
B|---------------------------------|------------------------------------|
G|---------------------------------|------------------------------------|
D|-------------------------0-0-2-2-|--2-2-2-0-0-0-----------------------|
A|-------------0-0-0-2-2-2---------|--------------2-2-2-0-0-0-----------|
E|-0-0-0-3-3-3---------------------|--------------------------3-3-5-5-0-|
 
 
Свернуть Распечатать

Аппликатуры аккордов

Аккорд EmАккорд GАккорд CАккорд BАккорд D
d__fedorovd__fedorov
автор подбора аккордов
6,293 6 04.07.2016

Видео