Бригадный Подряд - Выпускной, аккорды

Прокрутка
Тональность
Шрифт
100
E |-4---0------4---0----7-5-4-5-4-2-4-5-4---0------4---5---0-|

E
Бальное сшито платье 
G#
Волосы ветер гладит 
C#m B
Вот твой выпускной 

E
Куплено сто пирожных 
G#
А на душе тревожно 
C#m B
Как всегда весной 

C#5 D#5 E5 

A B G# C#m - B
Сведут мосты и протрезвев увидишь ты 
A B G# C#m - B
Как по Неве плывут обрывки парусов 
A B G# C#m - B
Сведут мосты и разлетаются мечты 
A B E
Под хор осипших голосов 

E5
Пару глотков из фляжки 
G#
И по спине мурашки 
C#m B
И этот танец твой 

E
Взгляды и обещанья 
G#
И поцелуй прощальный 
C#m B
Вот твой выпускной 

A B G# C#m - B
Сведут мосты и протрезвев увидишь ты 
A B G# C#m - B
Как по Неве плывут обрывки парусов 
A B G# C#m - B
Сведут мосты и разлетаются мечты 
A B E
Под хор осипших голосов

Tempo = 82
E |----------------------------------------------------|
B |----------------------------------------------------|
G |--2--------1--------2-----------1-------------------|
D |--------------------------------------4-----2-------|
A |--4-------------------------------------------------|
E |----------------------------------------------------|

----------------------------------------------------|
----------------------------------------------------|
--2--------1--------2-----------1-------------------|
--------------------------------------4-----2-------|
----------------------------------------------------|
--0-------------------------------------------------|

----------------------------------------------------|
----------------------------------------------------|
----------------------------------------------------|
--4--------2--------4-----------2-----1-----2-------|
--2-------------------------------------------------|
----------------------------------------------------|

----------------------------------------------------|
----------------------------------------------------|
--------------------------------------2-----1-------|
--------------------1--------2----------------------|
--2--------4----------------------------------------|
----------------------------------------------------|

----------------------------------------------------|
----------------------------------------------------|
--2--------1--------2-----------1-------------------|
--------------------------------------4-----2-------|
----------------------------------------------------|
--0-------------------------------------------------|

----------------------------------------------------|
----------------------------------------------------|
--2--------1--------2-----------1-------------------|
--------------------------------------4-----2-------|
--4-------------------------------------------------|
----------------------------------------------------|

----------------------------------------------------|
----------------------------------------------------|
----------------------------------------------------|
--4--------2--------4-----------2-----1-----2-------|
--2-------------------------------------------------|
----------------------------------------------------|

----------------------------------------------------||
----------------------------------------------------||
--------------------------------------2-----1-------||
--------------------1--------2----------------------||
--2--------4----------------------------------------||
----------------------------------------------------||

 
 
Свернуть Распечатать

Аппликатуры аккордов

Аккорд EАккорд G#Аккорд C#mАккорд BАккорд C#5Аккорд D#5Аккорд E5Аккорд AАккорд GАккорд D
garryliegarrylie
автор подбора аккордов
1,092 1 06.09.2021

Видео