Brown James - Play That Funky Music, аккорды

Прокрутка
Тональность
Шрифт
100
    Artist:James Brown
    Song:Play That Funky Music(White Boy)
    Tabbed by:Svilen Kostadinov 
   
    Standard tunning

    Verse:
    Repeat this...
    G------7-9----79-------------------------
    D----------789---------------------------
    A----7-----------------------------------
    E----------------------------------------
 
    Chorus:
    G-----------------------------------------
    D-----------5-5-----35--------5-5----35---
    A---------------345--------------345------
    E--1-1-2-3----------------3---------------
    
    and then:
    G---------------------------------7-9-------79---
    D-------------------------------------789--------
    A---3-5-2-5-2-0-2-0-2-0-----5-7------------------
    E-----------------------3-0----------------------
     
    in the end:
    G-----------------------------------------------
    D--------7-7-----5-7-------7-7----5-7-----------
    A------------567--------------567---------------
    E----5-----------------5------------------------
     
    Just listen to the song to have it!
    For any comennts:emko_kpoc@hotmail.com