Burzum - War, аккорды

Прокрутка
Тональность
Шрифт
100
Riff 1: (Intro + Verse)

Riff 1a:
(first play into 1, repeat and play into 2,
repeat and play into 3, then go to Riff 1b)
                                1&3.-----  2.-------
E|---------|---------|---------|---------||---------||
B|---------|---------|---------|---------||---------||
G|---------|---------|---------|---------||---------||
D|---------|---------|---------|---------||---------||
A|---------|---------|---------|---------||---------||
E|-0-7-8-0-|-5-7-0-3-|-5-0-2-3-|-0-3-5---||-5-3-2---||

Riff 1b:
E|---------|---------|---------|---------|
B|---------|---------|---------|---------|
G|---------|---------|---------|---------|
D|---------|---------|---------|---------|
A|---------|---------|-------4-|-----5---|
E|-0-7-8-0-|-5-7-0-3-|-5-0-2-2-|-----3---|

Riff 2: (Chorus) 

Play riffs: 2a, 2b, 2a, 2c

Riff 2a:
E|---------|---------|---------|---------|
B|---------|---------|---------|---------|
G|---------|---------|---------|---------|
D|---------|---------|---------|---------|
A|---------|---------|---------|---------|
E|-0-7-8-0-|-7-8-0-8-|10-01012-|-0-810---|                       
                     (tens and twelves, not 1 0 and 1 2)    
   War...

Riff 2b:
E|---------|---------|---------|---------|
B|---------|---------|---------|---------|
G|---------|---------|---------|---------|
D|---------|---------|---------|---------|
A|---------|---------|---------|---------|
E|-0-7-8-0-|-5-7-0-3-|-5-0-2-3-|-5-3-2---|   
  War...

Riff 2c:
E|---------|---------|---------|---------|
B|---------|---------|---------|---------|
G|---------|---------|---------|---------|
D|---------|---------|---------|---------|
A|---------|---------|-------4-|-----5---|
E|-0-7-8-0-|-5-7-0-3-|-5-0-2-2-|-----3---|
   War...

Riff 3:
   1 2 3 4   1 2 3 4
E|---------|---------|
B|---------|---------|
G|---------|---------|
D|---------|---------|
A|-22222222|-22222---|
E|-00000000|-0000012-|    
 
 

Видео