Busta Rhymes - Put Your Hands Where My Eyes Can See, аккорды

Прокрутка
Тональность
Шрифт
100
this song is awesome and i could no longer bear the other version. this is played
on a puchy as hell bass as well as being palm muted and slapped. i think it also
sounds pretty good on a slightly dirty, muted guitar. anyway...

this is played throughout
D---6---------------6-------------||
A---------------------------------||
E-4---4---4-------4---4---4-------||

chorus [string-synth arr. for guitar]
B-12--------11----------------------------||
G-13--------13--------13--------13--------||
D-----------------------------------------||
A-14--------13--------11--------11--------||
E-----------------------------------------||

OR if you aren't that flexible...[just drop the drone-note and play]
G-16--------15--------13--------13--------||
D-----------------------------------------||
A-14--------13--------11--------11--------||
E-----------------------------------------||


blasphemiser987@aol.com
 
 

Видео