Татьяна Буланова - Как жаль, аккорды

Прокрутка
Тональность
Шрифт
100
Вступление:
  Gm  Cm   D7  Gm    D# Cm/A  D7 Gm
e|----6--8-5---10--8-8-6--5--6-5-6-
b|---------------------------------
g|---------------------------------
d|---------------------------------
a|---------------------------------
e|---------------------------------

   Cm   D7  Gm     D# Cm/A   D7 Gm
e|-6--8-8---11--10-8-6--5--6-5-6-3-
b|---------------------------------
g|---------------------------------
d|---------------------------------
a|---------------------------------
e|---------------------------------

    Cm      D7               Gm
Как жаль, что нам не быть вдвоем,
     Cm	  F		A#
Как грустно, что не повторится,
       Cm		D7   D#
Что в сердце мне не жить твоем,
     G7		   Cm     Gm	 D7	     D#
Что рано улетели птицы и больше песен не споем,
   Cm/D#		      D7
Как жаль, что нам не быть вдвоем.

    Cm        D7        Gm
Как жаль, что я уже не та -
 Cm	    F		A#
Уже спокойно сплю ночами,
  Cm	     D7	       D#
Осталась за спиной черта,
    G7		         Cm       Gm	   D7	    D#
За ней мы раньше так скучали, но канула любовь в лета -
   Cm/D#		D7
Как жаль, что я уже не та...

D#         F            D7      Gm
Но ночами часто предо мной твой образ,
D#         F       D7    Gm
Мне напоминает о тебе любимый,
Cm              D7         D#
Мой родной как часто слышу я твой голос.
G                   G7     Cm
Он зовет меня в тот день неповторимый,
Gm          D7          D#
Я бегу к тебе я так стараюсь,
Cm                  Am-5 D7
Падаю во сне и просыпаюсь.

    Cm       D7         Gm
И вновь две жизни существуют -
  Cm	      F		 A#
Одна, в которой ты остался,
    Cm    D7	   D#
Где ты меня еще целуешь,
     G7		            Cm     
Где каждый день со мной встречался, 
    Gm	    D7	       D#
И день минутой был тогда -
     Cm/D#		     D7
В той жизни, ты со мной всегда

   Cm       D7          Gm
Другая жизнь, в которой я
Cm	       F	   A#
Теперь спустя уж год и месяц
  Cm	     D7	     D#
Живу, по-прежнему любя,
    G7		          Cm       Gm    D7	      D#
Но только солнце так не светит, и рядом больше нет тебя,
    Cm/D#		   D7
Как жаль, что рядом нет тебя.

D#           F            D7      Gm
Ветер пусть тоску мою с собой уносит
D#              F        D7    Gm
Пусть развеет, разметет ее по свету,
Cm        D7           D#
Почему меня ты милый бросил,
 G        G7        Cm
Почему тебя со мною больше нету,
Gm             D7         D#
Ты вернись, я так тебя молю,
Cm                     Am-5 D7   Gm
Видит бог, я до сих пор тебя люблю.

Outro:
      Cm   D7  Gm    D# Cm/A  D7 Gm
e|----6--8-5---10--8-8-6--5--6-5-6-
b|---------------------------------
g|---------------------------------
d|---------------------------------
a|---------------------------------
e|---------------------------------

   Cm   D7  Gm     D# Cm/A   D7 Gm  Gm
e|-6--8-8---11--10-8-6--5--6-5-6-3-
b|---------------------------------
g|---------------------------------
d|---------------------------------
a|---------------------------------
e|---------------------------------
 
 
Свернуть Распечатать

Видео