Бумбокс - Летний дождь, аккорды

Прокрутка
Тональность
Шрифт
100
E|-----------------------------------------------------------------0-----------|
B|-------6-----5--------------6-----5--------6-----5-------------3---------2-3-|
G|-----7-----7-----*7-------3-----3--------5-----5----*7-------2---------2-----|
D|---7-----7-----*7 -*7---5-----5--------5-----5----*7-------3---------2-------|
A|-5---------------- ------------------3---------------*7-----------0----------|
E|----------------------3---------------------------------1--------------------|

E|-----------------------------------------------------------------0-----------|
B|-------6-----5--------------6-----5--------6-----5-------------3---------2-3-|
G|-----7-----7-----*7-------3-----3--------5-----5----*7-------2---------2-----|
D|---7-----7-----*7 -*7---5-----5--------5-----5----*7-------3---------2-------|
A|-5---------------- ------------------3---------------*7-----------0----------|
E|----------------------3---------------------------------1--------------------|

E|----------------------------------------------------------------1-3-0-1-|
B|-------6-----5----------------6-----5--------2-------2-3------3---------|
G|-----7-----7-----*7--------3-----3---------0-------0--------2-----------|
D|---7-----7-----*7- *7----5-----5---------2-------2--------0-------------|
A|-5---------------- --------------------0-------0------------------------|
E|-----------------------3------------------------------------------------|
*7- ФЛАЖАЛЕТЫ НА VII ЛАДУ

Gm7              Am       Dm 
Память уже не жалит, мысли не бьют по рукам
 Gm          Am                  Dm 
Я тебя провожаю к другим берегам, берегам
Gm                      C         A  Dm
Ты - перелётная птица, счастья ищешь в пути
Gm                             A            Dm
Приходишь чтобы проститься и снова уйти, снова уйти.

Припев
 Gm7           Am                Dm     C 
Летний дождь, летний дождь начался сегодня рано
 Gm7           Am                Dm      F 
Летний дождь, летний дождь моей души омоет рану
 Gm                     A          Dm Am
Мы погрустим с ним вдвоём у слепого окна.

 Gm7           Am                Dm          C 
Летний дождь, летний дождь шепчет мне легко и просто
Gm7           Am                Dm           F 
Что придёшь, ты придёшь, ты придёшь, но будет поздно
Gm                                A        Dm   
Несвоевременность - вечная драма, где есть он и она.
       Dm Gm C F A 2p
       Dm Gm A7 Dm
  
Gm7                   Am          Dm     C
Ты перестанешь мне сниться скоро совсем, а потом
 Gm          Am                  Dm 
Новой мечтой озариться остывший наш дом
Gm                        C          A   Dm
Что от любви любви не ищут ты с годами поймёшь
Gm                 A                            Dm
Ну а сейчас ты не слышишь и тебя не вернёшь, не вернёшь.

Припев
 Gm7           Am                Dm     C 
Летний дождь, летний дождь начался сегодня рано
 Gm7           Am                Dm      F 
Летний дождь, летний дождь моей души омоет рану
 Gm                  A             Dm Am
Мы погрустим с ним вдвоём у слепого окна.

 Gm7           Am                Dm          C 
Летний дождь, летний дождь шепчет мне легко и просто
Gm7           Am                Dm           F 
Что придёшь, ты придёшь, ты придёшь, но будет поздно
Gm                                A          Dm   
Несвоевременность - вечная драма, где есть он и она.
        Dm Gm C F A 2p
        Dm Gm A7 Dm
 
 
Свернуть Распечатать

Видео