Бутусов Вячеслав - Звездочка, аккорды

Прокрутка
Тональность
Шрифт
100
e|-88-8-8-8--88-8-8-8--88-8-8-8|------------|--88-8-8-8--88-8-8-8-|
B|8--7-6-5--8--7-6-5--8--7-6-5-|------------|-8--7-6-5--8--7-6-5--|
G|-----------------------------|--7654-7654-|---------------------|
D|-----------------------------|------------|---------------------|
A|-----------------------------|------------|---------------------|
E|-----------------------------|------------|---------------------|
  
e|------------|---88-8-8-8--88-8-8-8|----54-----75----15/17-15-|
B|------------|--8--7-6-5--8--7-6-5-|--------------------------|
G|--7654-7654-|---------------------|-----------------765------|
D|------------|---------------------|-987-----987--------------|
A|------------|---------------------|--------------------------|
E|------------|---------------------|--------------------------|
   
e|--88-8-8-5-3|-----------|
B|-8--7-6-----|653-531-310|
G|------------|-----------|
D|------------|-----------|
A|------------|-----------|
E|------------|-----------|
  
e|878-----878-----|
B|---8-------8----|
G|----9-------9---|
D|-----10------10-|
A|----------------|
E|----------------|
 
 C                    G
 С неба звездочка скатилась
                    C
 И сказала, чуть дыша:
 C                  G
 "Я влюбилась в Самуила,
                C
 В Самуила Маршака.
 
                E
 Я давно его искала,
                      Am
 Все моталась, все летала,
                   G
 Лет прошло уже немало,
                C
 Наконец-то нашла!
 
                     Dm
 Он один мне всех дороже,
                       C
 Он не мальчик, ну и что же,
                   G
 Я ведь тоже не девица,
                              C
 Слава Богу, мне семнадцатый век".
 
e|10-10----------5-3|12-12---------17-15|
B|-----12-----------|-----13------------|
G|-------12---------|-------12----------|
D|---------14-12----|---------14-10-----|
A|------------------|-------------------|
E|------------------|-------------------|
   
e|10-10----------5-3|12-12---------17-15|
B|-----12-----------|-----13------------|
G|-------12---------|-------12----------|
D|---------14-12----|---------14-10-----|
A|------------------|-------------------|
E|------------------|-------------------|
   
e|12-12---------5-4-|8-8---------7-5----|
B|-----12-----------|---10--------------|
G|-------13---------|-----9-------------|
D|---------14-9-----|------10-7---------|
A|------------------|-------------------|
E|------------------|-------------------|
   
e|10-10----------17-15|12-12---------5-3|
B|-----12-------------|-----13----------|
G|-------12-----------|-------12--------|
D|---------14-12------|---------14-10---|
A|--------------------|-----------------|
E|--------------------|-----------------|
 
 C                 G
 Самуил, услышав это,
                  C
 Очень долго хохотал,
 C                    G
 Ты смешнее всех на свете -
              C
 Развеселая вдова.
 
              E
 Уморила Самуила,
             Am
 Укатала старика, -
                  C
 Я давно уже на небе,
              G
 Прилетай-ка сюда,
 
e|------------|
B|653-531-310-|
G|------------|
D|------------|
A|------------|
E|------------|
 
                     Dm
 Ты искала слишком долго,
                     C
 И нашла в стогу иголку,
                     G
 Никакого в этом толку нет, звезда.
                C
 Возвращайся назад.

e|---------------------------------| 
B|---------------------------------|
G|---------------------------------|
D|55443322-4433221-66554433-5544332|
A|---------------------------------|
E|---------------------------------|
 
e|12-12----------7-5|14-14----------19-17|
B|-----14-----------|-----15-------------|
G|-------14---------|-------14-----------|
D|---------14-11----|---------16-12------|
A|------------------|--------------------|
E|------------------|--------------------|
   
e|12-12----------7-5|14-14----------19-17|
B|-----14-----------|-----15-------------|
G|-------14---------|-------14-----------|
D|---------14-11----|---------16-12------|
A|------------------|--------------------|
E|------------------|--------------------|
   
 D                  A
 С неба звездочка упала,
                   D
 Зацепилась за крючок,
 D                  A
 Отвиселась и сказала:
                   D
 Здравствуй милый дурачок.
 
e|14-14----------7-6|10-10-----------9-7|
B|-----14-----------|-----12------------|
G|-------15---------|-------11----------|
D|---------16-9-----|---------12-9------|
A|------------------|-------------------|
E|------------------|-------------------|
   
e|12-12----------19-17|14-14-----------7-5|
B|-----14-------------|-----15------------|
G|-------14-----------|-------14----------|
D|---------14-11------|---------16-12-----|
A|--------------------|-------------------|
E|--------------------|-------------------|
 
                  F#
 Вот тебя то я искала,
                  Bm
 Мой любимый дорогой,
                        A
 Образ твой всегда печален и
                    D
 Я примчалась за тобой,
 
e|-----------|
B|875-753-532|
G|-----------|
D|-----------|
A|-----------|
E|-----------|
 
                 Em
 Я следила за тобою с высока,
 Em
 Ты мне нравишься,
     D
 Но только вот беда,
                 A
 Не умеешь ты летать наверняка, -
                  D
 Сокрушалась звезда
 
         A
e|10-9-10---------10-9-10--------989-------989---------|
B|-------10--------------10---------10--------10-------|
G|---------11--11----------11--9------9--9------9------|
D|-----------12--------------12--------11--------11-12-|
A|-----------------------------------------------------|
E|-----------------------------------------------------|
   
e|12-12----------7-5|14-14----------19-17|
B|-----14-----------|-----15-------------|
G|-------14---------|-------14-----------|
D|---------14-11----|---------16-12------|
A|------------------|--------------------|
E|------------------|--------------------|
   
e|12-12----------7-5|14-14----------19-17|
B|-----14-----------|-----15-------------|
G|-------14---------|-------14-----------|
D|---------14-11----|---------16-12------|
A|------------------|--------------------|
   
                 F#
 А я сяду на ракету,
                    Bm
 И отправлюсь за звездой,
                A
 У меня жена и дети,
                 D
 Я возьму их с собой.
 
e|-----------|10-9-10--------|
B|875-753-532|-------10------|
G|-----------|---------11--11|
D|-----------|-----------12--|
A|-----------|---------------|
E|-----------|---------------|
 
                 Em
 А звезда мне отвечала:
 Em
 Стой-ка, стой!
                 D
 Ты какой-то торопливый, милый мой.
                  A  
 Начинаем все сначала ла-ла-ла,
                 D
 Повторяй-ка за мной:
 
e|--12--12..|--10--10..|-9-9..|
B|12--12--..|10--10--..|8-8-..|
G|----------|----------|------|
D|----------|----------|------|
A|----------|----------|------|
E|----------|----------|------|
 
                 Em
 "С неба звездочка упала-ла-ла-ла,
                 D
 И решительно сказала-ла-ла-ла,
                 A
 До свиданья друг мой милый дорогой,
                 D
 Я прощаюсь с тобой"

e|-----------------------------------| 
B|-----------------------------------|
G|-----------------------------------|
D|77665544-6655443-77665544-6655443-7|
A|-----------------------------------|
E|-----------------------------------|
 
                D
 Мне пора бы домой...
 
 
Свернуть Распечатать

Видео