Бутусов Вячеслав - Вертолет, аккорды

Прокрутка
Тональность
Шрифт
100
Intro:
  D             A D       C#7       F#m
1|5424242-4242020-2424542-4+----------|
2|------------------------2+9-6-3-0---|
3|------------------------4+-------1--|
4|------------------------3+--------34|

Riff 1:
1|-----------------------------------------------------------------------|
2|-----02320---02320---02320---02320----020------030-------0-------------|
3|---22-----211-----122-----211-----1002---20---2---2----02-20-----------|
4|--------------------------------------------44------433-----3-22200----|
5|9-----------------------------------------------------------------4422-|
6|-----------------------------------------------------------------------|

Riff 2:
1|-----------54-----------54-------------------32--------------10-|
2|-----023-------------023-------------------02-------------------| 
3|---------------------------------------2------------------02----|
4|---------------------------------------------------------3------|

Под Riff 1:
Bm7            E
Я лечу над землей,
Bm7        E
Верчу головой,
A7             D
Я теперь вертолет.
G7           A
Выше тучи полет.

Riff 3:
1|--7-10--7-10--7---7-10-7-10-7---7-10--7-10--7---7-10-7-10-7---5-9--5-9-5
2|10----10----10---9----9----9--10----10----10---9----9----9---8----8---8-...

1|-5-10-5-10-5---3-7-3-7-3------------|
2|7----7----7---6---6---6-------------|
3|--------------------------999776644-|
           
Под Riff 3:
Bm7            E
Вижу сверху свой дом,
Bm7            E
Всем привет, всем подъем.
A7             D
В доме кто-то не спит,
G7             A
В доме кто-то поет:

Riff 5:
5|4-----(4)-------4--(4)-----4-----(4)---------|  
6|-------2------------2-------------2----0----4|

2|10-9-7-9-7-5-3--9-7-5-7-5-3-2--7-5-3-9-10-9-3--6-3-0-6-3-0-2|

Под Riff 5:
C#
"Пой ласточка, пой.
F#m
Пой, милая.
C#
Пой, не умолкай,
F#m
Красивая.           
C#
Пой, ласточка, пой.
F#m
Пой, милая,
E     E7     Ab
Пой, не умолкай"
        
Под Riff 1:
Bm7            E
Я лечу над землей.
Bm7            E
Возвращаюсь домой.
A7             D
Ты мне машешь крылом,     
G7             A
"Я - центральный, прием".

Под Riff 3:
Bm7            E
Вижу сверху наш дом,
Bm7            E
Вижу свет за окном,
A7             D
Мы сидим за столом,     
G7             A
Чай пьем и поем:

Под Riff 5:
C#
"Спи, звездочка, спи.
F#m
Спи, ясная.
C#
Спи, не угасай,
F#m
Прекрасная.
C#
Спи, звездочка спи.     
F#m
Спи, ясная,
E     E7     Ab
Спи, не угасай"

Outro: 
Riff 2:
1|-----------54-----------54-------------------32--------------10-|
2|-----023-------------023-------------------02-------------------| 
3|---------------------------------------2------------------02----|
4|---------------------------------------------------------3------|

Riff 3:
1|--7-10--7-10--7---7-10-7-10-7---7-10--7-10--7---7-10-7-10-7---5-9--5-9-5
2|10----10----10---9----9----9--10----10----10---9----9----9---8----8---8-...

1|-5-10-5-10-5---3-7-3-7-3------------|
2|7----7----7---6---6---6-------------|
3|--------------------------999776644-|

2|-10-9-7-9-7-5-3--9-7-5-7-5-3-2--7-5-3-9-10-3--9-6-3-9-6-3-7-|