Бутусов Вячеслав - Песня идущего домой, аккорды

Прокрутка
Тональность
Шрифт
100
Intro:
e||-3-|---6-5-3---3-|---6-5-3---5-|
B||---|-6-------6---|-6-------6---|
G||---|-------------|-------------|
D||---|-------------|-------------|
A||---|-------------|-------------|
E||---|-------------|-------------|

e||---8-6-5---5-|---8-6-5-----|
B||-8-------8---|-8-------6-8-|
G||-------------|-------------|
D||-------------|-------------|
A||-------------|-------------|
E||-------------|-------------|

e||---6-5-3---3-|---6-5-3---5-|-5-||
B||-6-------6---|-6-------6---|---||
G||-------------|-------------|---||
D||-------------|-------------|---||
A||-------------|-------------|---||
E||-------------|-------------|---||

Dm A#
Я шел к себе домой, я шел по мокрым лужам,
F Gm 
По скользкой мостовой, ногами снег куртюжил
Dm A# F Gm
А мокрый снег падал, а я шел домой,
Dm A# F Gm 
По зимнему саду, по пустой мостовой.
C F C F
Он шел со мной рядом, шпионил за мной,
C E Am
Следил за мной взглядом, бесшумный конвой.
Dm E Am
И вот я стою, на краю снегопада,
Dm E Am
С неба падает снег значит небу так надо.

Dm A#
В это трудно поверить - я вернулся домой
F Gm 
Ты открыла мне двери, снег вошел вслед за мной
Dm A# F Gm
И вдруг снег растаял – увидел тебя
Dm A# F Gm
На пороге остались только капли дождя
C F C F
Нас уносит река плавных весел волнами
C E Am
Словно кто-то открыл все небесные краны
Dm E Am
Мы стоим на краю, на краю водопада
Dm E Am
С неба льется вода, значит небу так надо.
 
 
Свернуть Распечатать

Видео