Бутусов Вячеслав - Скважина, аккорды

Прокрутка
Тональность
Шрифт
100
Em      A D               G
Звук пилы очень ржавой пилы
C      D    B             A
Стук в дверь за тобой пришли
Em         A D                G
Крюк в стене чей-то рваный тулуп
C             D   B           A
Эту вахту мой друг я посвещаю тебе

Bm       F# A              D
Дам Биль Вим бесконечный путь
G       F# Bm          G
Там под ним темнота и дым
C7       F#          Bm
Будь всегда Дам Биль Вим

Em      A D           G
круг луны в потолке дыра
C      D    B            A
за ней мой друг вечный свет
Em      A D              G
ступай за ним повторяй слова
C      D    B           A
Дам Биль Вим закрывай глаза
Bm       F# A D
Улетай goodbye
_________________
Вступление:
  Em                A            D                 G
E|---0-2-|-3-------|------|-----|-------|---------|------|-----|
A|-------|---0-2-5-|-4----|-----|-------|---------|------|-----|
D|-------|---------|------|-----|---0-2-|-4-------|------|-----|
G|-------|---------|------|-----|-------|---0-2-5-|-4----|-----|
B|-------|---------|------|-----|-------|---------|------|-----|
e|-------|---------|------|-----|-------|---------|------|-----|

   C                 D            B                 A
E|-------|---------|------|-----|-------|---------|------|-----|
A|---3---|---------|------|-----|---1-3-|---------|------|-----|
D|-----0-|-2-3-----|------|-----|-------|-0-1-3---|------|-----|
G|-------|-----0-3-|-2----|-----|-------|-------1-|-0----|-----|
B|-------|---------|------|-----|-------|---------|------|-----|
e|-------|---------|------|-----|-------|---------|------|-----|

Вступление 2:
   Em                A                  D                  G
E|-------|---------|--------|---------|--------|---------|--------|---------|
A|-------|---------|--------|---------|--------|---------|--------|---------|
D|---2-4-|---------|--------|---------|----0-2-|-4-------|--------|---------|
G|-------|-0-2-4---|----0-2-|---------|--------|---0-2-5-|-4--0-2-|---------|
B|-------|-------3-|-2------|-0-2-3---|--------|---------|--------|-0-1-3-5-|
e|-------|---------|--------|-------0-|-2------|---------|--------|---------|

   C                 D                  B                  A
E|-------|---------|--------|---------|--------|---------|--------|---------|
A|---3---|---------|--------|---------|----1-3-|---------|--------|---------|
D|-----0-|-2-3-----|--------|---------|--------|-0-1-3---|--------|---------|
G|-------|-----0-3-|-2--0-2-|---------|--------|-------1-|-0--0-2-|---------|
B|-5-----|---------|--------|-0-1-3---|--------|---------|--------|-0-2-3-5-|
e|-------|---------|--------|-------0-|-1------|---------|--------|---------|

Проигрыш:
E|-2------|---------|---0-2-|-3-------|--------|
A|-2--2-4-|---------|-------|---0-2-5-|-4------|
D|-4------|-0-2-4---|-------|---------|--------|
G|-4------|-------2-|-0-----|---------|----0-2-|
B|-3------|---------|-------|---------|--------|
e|-2------|---------|-------|---------|--------|
   Bm

Заключение:
E|-------|---------|---0-2-|
A|---2-4-|---------|-------|
D|-------|-0-2-4---|-------|
G|-------|-------2-|-0-----|
B|-------|---------|-------|
e|-------|---------|-------|
 
 

Видео