Детские песни - Маленькой ёлочке холодно зимой, аккорды

Прокрутка
Тональность
Шрифт
100
Основная тема:
E|-3--0-0--3--0-0--|--3-1-0-----
B|-----------------|--------3-1-
G|-----------------|------------
D|-----------------|------------
A|-----------------|------------
E|-----------------|------------

E|-5--8-5-3--0-0---|--3-1-0-----
B|-----------------|--------3-1-
G|-----------------|------------
D|-----------------|------------
A|-----------------|------------
E|-----------------|------------

Комментарий автора:

Текст:

Маленькой елочке
Холодно зимой,
Из лесу елочку
Взяли мы домой.
Из лесу елочку
Взяли мы домой.

Сколько на елочке
Шариков цветных,
Розовых пряников,
Шишек золотых!
Розовых пряников,
Шишек золотых!

Бусы повесили,
Встали в хоровод.
Весело, весело
Встретим Новый год!
Весело, весело
Встретим Новый год!
 
 
Свернуть Распечатать

Видео