Cash Johnny - Hurt, аккорды

Прокрутка
Тональность
Шрифт
100
Verse:
e|------0-------0-------2-------0-
B|------1-------1-------3-------1-
G|------2-------0----2--2-------2-
D|---2-------2-----0---------2----
A|-0-------3---------------0------
E|--------------------------------

Chorus:
Am C G D
-0-------0------3------2-|
-1-------1------0------3-|
-2--x8---0--x8--0--x8--2-| x8
-2-------2------0------0-|
-0-------3------2--------|
-------------------------|
 
 

Видео