Cash Johnny - Hurt, аккорды

Прокрутка
Тональность
Шрифт
100
Intro: 4/4
    Gtr I
    Am                  C      D        Am
||------0--(0)----|-----0------2---||-----0--(0)----|
||о-----1--(1)----|-----1------3--о||-----1--(1)----|
||------2--(2)----|-----0----2-----||-----2--(2)----|
||----2-----------|---2----0-------||---2-----------|
||о-0-------------|-3-------------о||-0-------------|
||----------------|----------------||---------------|

Verse:
I hurt myself today
      C        D        Am              C      D
||------0------2--|-----0--(0)-----||-----0------2--|
||о-----1------3--|-----1--(1)----о||-----1------3--|
||------0----2----|-----2--(2)-----||-----0----2----|
||----2----0------|---2------------||---2----0------| 
||о-3-------------|-0-------------о||-3-------------|
||----------------|----------------||---------------|

To see if I still feel
      C        D        Am              C      D
||------0------2--|-----0--(0)-----||-----0------2--|
||о-----1------3--|-----1--(1)----о||-----1------3--|
||------0----2----|-----2--(2)-----||-----0----2----|
||----2----0------|---2------------||---2----0------|         
||о-3-------------|-0-------------о||-3-------------|
||----------------|----------------||---------------|
 
I focus on the pain
      C        D        Am              C      D
||------0------2--|-----0--(0)-----||-----0------2--|
||о-----1------3--|-----1--(1)----о||-----1------3--|
||------0----2----|-----2--(2)-----||-----0----2----|
||----2----0------|---2------------||---2----0------|         
||о-3-------------|-0-------------о||-3-------------|
||----------------|----------------||---------------|

The only thing that's real
      C        D        Am              C      D
||------0------2--|-----0--(0)-----||-----0------2--|
||о-----1------3--|-----1--(1)----о||-----1------3--|
||------0----2----|-----2--(2)-----||-----0----2----|
||----2----0------|---2------------||---2----0------|         
||о-3-------------|-0-------------о||-3-------------|
||----------------|----------------||---------------|

The needle tears a hole
      C        D        Am              C      D
||------0------2--|-----0--(0)-----||-----0------2--|
||о-----1------3--|-----1--(1)----о||-----1------3--|
||------0----2----|-----2--(2)-----||-----0----2----|
||----2----0------|---2------------||---2----0------|         
||о-3-------------|-0-------------о||-3-------------|
||----------------|----------------||---------------|

The old familar sting
      C        D        Am              C      D
||------0------2--|-----0--(0)-----||-----0------2--|
||о-----1------3--|-----1--(1)----о||-----1------3--|
||------0----2----|-----2--(2)-----||-----0----2----|
||----2----0------|---2------------||---2----0------|         
||о-3-------------|-0-------------о||-3-------------|
||----------------|----------------||---------------|

Try to kill it all away
      C        D        Am              C      D
||------0------2--|-----0--(0)-----||-----0------2--|
||о-----1------3--|-----1--(1)----о||-----1------3--|
||------0----2----|-----2--(2)-----||-----0----2----|
||----2----0------|---2------------||---2----0------|         
||о-3-------------|-0-------------о||-3-------------|
||----------------|----------------||---------------|

But I remember everything
      C        D        Am              C      D
||------0------2--|-----0--(0)-----||-----0------2--|
||о-----1------3--|-----1--(1)----о||-----1------3--|
||------0----2----|-----2--(2)-----||-----0----2----|
||----2----0------|---2------------||---2----0------|         
||о-3-------------|-0-------------о||-3-------------|
||----------------|----------------||---------------|

Chorus:
  G   A7sus4
What have I become?
  Fadd9      C
My sweetest friend
  G   A7sus4
Everyone I know, goes away
  Fadd9      C
In the end
  G   A7sus4
You could have it all
  Fadd9      C
My empire of dirt
  G   A7sus4
I will let you down
  Fadd9      C
I will make you hurt

Verse:
 C   D   Am
I wear this crown of thorns
 C   D   Am
Upon my liars chair
 C   D   Am
Full of broken thoughts
 C   D   Am
I cannot repair
 C   D   Am
Beneath the stains of time
 C   D   Am
The feelings disappear
 C   D   Am
You are someone else
 C   D   Am
I am still right here

Chorus:
  G   A7sus4
What have I become?
  Fadd9      C
My sweetest friend
  G   A7sus4
Everyone I know, goes away
  Fadd9  C
In the end
  G   A7sus4
You could have it all
  Fadd9      C
My empire of dirt
  G   A7sus4
I will let you down
  Fadd9      C
I will make you hurt

Verse:
 C   D   Am
If I could start again
 C   D   Am
А million miles away
 C   D   Am
I would keep myself
 C   D   Am
I would find a way

Комментарий автора:

Бой: вниз вниз вниз вниз
Verse играть перебором как первый Chorus
 
 
Свернуть Распечатать

Видео