Cash Johnny - Hurt, аккорды

Прокрутка
Тональность
Шрифт
100
Main Riff:                                     
E|--------0-----------0-----------0-----------|
B|--------1-----------1-----------3-----------|
G|--------2-----------0-------2---2-----------| play this a few times
D|----2---2-------2---2-----0-----------------| 
A|--0-----------3-----3-----------------------|
E|--------------------------------------------|

Another Riff:
    G         Am7        F/G        C/G           
E|--3----------3----------3----------3-----------|
B|--0----------1----------1----------1-----------|
G|--0-(8x)-----2-(8x)-----2-(8x)-----0-----------|
D|--0----------2----------3----------2-----------|
A|--2----------0----------0----------3-----------|
E|--3--------------------------------------------|

3 riff :
(each chord is strummed 8 times ... and all down strokes)
   G   Am7   F/G   G  G  Am7  F/G  G
E|-3----3-----3----3--3---3----3---3-
B|-0----1-----1----0--0---1----1---0-
G|-0----2-----2----0--0---2----2---0-
D|-0----2-----3----0--0---2----3---0-
A|-2----0-----0----2--2---0----0---2-
E|-3---------------3--3------------3-
 
 

Видео