Черный Кофе - Листья, аккорды

Прокрутка
Тональность
Шрифт
100
Am              Am7
С ветки падающий лист
      Dm      G
В день осенний золотист
     Dm      Em
Он по воздуху кружится
    Dm          Dsus4
И танцует как артист
F     G     Am
С ветки падающий лист
 
Нет ни братьев ни сестер
Он один на весь простор
Он пьянеет от свободы
И пылает как костер
Он один на весь простор

     Dm         G
Если б листья знать могли
      Em      Am
Сколько лету до земли
   Dm       G
А потом лежать валяться
     Em      F
Под ногами и в пыли
Dm    Em         Am
Если б листья знать могли
F     G          Am
Если б листья знать могли

Но для каждого из нас
Сердцу мил свободы час
И порой нежалко жизни
Чтоб хлебнуть ее хоть раз
 F     G       Am
Так для каждого из нас
 F     Em      Am
Так для каждого из нас

Dm    Em         Am
Если б листья знать могли
F     G          A
Если б листья знать могли...

Комментарий автора:

Вместо Em можно брать так же и Riff E (кончик указательного пальца зажимает 5 струну на втором ладу, остальные две фаланги заглушают остальные  4 струны):
E|х-----------------------------------------------------
B|х-----------------------------------------------------
G|х-----------------------------------------------------
D|х-----------------------------------------------------
A|----2-------------------------------------------------
E|о-----------------------------------------------------

Для мощности звучания аккорд G можно брать с барре:
E|------------3---------------------------------------------------------------
B|------------3---------------------------------------------------------------
G|------------3---4-----------------------------------------------------------
D|------------3------5--------------------------------------------------------
A|------------3------5--------------------------------------------------------
E|------------3---------------------------------------------------------------

Аналогичным образом для мощности Am:
E|------------5---------------------------------------------------------------
B|------------5---------------------------------------------------------------
G|------------5---------------------------------------------------------------
D|------------5----7----------------------------------------------------------
A|------------5----7----------------------------------------------------------
E|------------5---------------------------------------------------------------

И Dm:
E|------------10--------------------------------------------------------------
B|------------10--------------------------------------------------------------
G|------------10--------------------------------------------------------------
D|------------10-----12-------------------------------------------------------
A|------------10-----12-------------------------------------------------------
E|------------10--------------------------------------------------------------

Аккорд Fm9
 
 
Свернуть Распечатать

Видео