Черный Кофе - Деревянные церкви Руси, аккорды

Прокрутка
Тональность
Шрифт
100
Это – концертный вариант песни,
исполняется на гитаре в строе DROP C 
(все струны опускаются на тон ниже, 
шестая опускается на два тона)

Riff C:
D|------------------------------------
A|------------------------------------
F|------------------------------------
C|-------3-----3-----5-----3-----2--3-
G|-------5-----5-----7-----5-----3--5-
C|---0-0---0-0---0-0---0-0---0-0------

Riff F:
D|---------------------------------
A|---------------------------------
F|-------------------5-------------
C|-------7-----8-----------8-7-5-7-
G|---5-5---5-5---5-5---5-5-------5-
C|---5-5---5-5---5-5---5-5-------5-

     Сm
Деревянные церкви Руси,
     Сm
Перекошены древние стены.
      Fm
Подойди и о многом спроси:
         Fm
В этих срубах есть сердце и вены

     Сm
Заколочено накрест окно
     Сm
Молчаливо убого убранство
      Fm
Но зато старым стенам дано
        Fm
Мерить душу с простым постоянством

          Cm      D#     A#
     Левитан оставался один,
              Cm     D#        A#
     Если кисть замирала в застое
         Fm
     И тогда среди многих картин
               Fm
     Вдруг рождалась "Над вечным покоем".

       Сm
На холсте небольшая деталь
          Сm
Церковь старая на косогоре
      Fm
И видна необъятная даль
      Fm
На былинно-бескрайнем просторе

     Сm
Старорусский народный обряд
      Сm
Неподкупная гордость людская
     Fm
Деревянные церкви стоят
     Fm
Это жизнь без конца и без края

     Сm
Деревянные церкви Руси,
     Сm
Перекошены древние стены.
      Fm
Подойди и о многом спроси:
         Fm
В этих срубах есть сердце и вены

Комментарий автора:

Аппликатура Cm: 000ххх
Аппликатура Fm: 555ххх
Аппликатура D#: 333ххх
Аппликатура A#: 33555х
 
 
Свернуть Распечатать

Видео